ISO-10303-21;
HEADER;
FILE_DESCRIPTION (( 'STEP AP203' ),
    '1' );
FILE_NAME ('Q-DWWP-R24-20-1064-SH-M.STEP',
    '2020-12-22T08:53:46',
    ( '' ),
    ( '' ),
    'SwSTEP 2.0',
    'SolidWorks 2020',
    '' );
FILE_SCHEMA (( 'CONFIG_CONTROL_DESIGN' ));
ENDSEC;

DATA;
#1 = PERSON_AND_ORGANIZATION ( #334, #287 ) ;
#2 = EDGE_CURVE ( 'NONE', #104, #307, #165, .T. ) ;
#3 = AXIS2_PLACEMENT_3D ( 'NONE', #179, #209, #54 ) ;
#4 = DIRECTION ( 'NONE',  ( -1.000000000000000000, -0.000000000000000000, -0.000000000000000000 ) ) ;
#5 = EDGE_CURVE ( 'NONE', #104, #333, #317, .T. ) ;
#6 = DIRECTION ( 'NONE',  ( 0.000000000000000000, 0.000000000000000000, 1.000000000000000000 ) ) ;
#7 = LOCAL_TIME ( 16, 53, 46.00000000000000000, #160 ) ;
#8 = CC_DESIGN_PERSON_AND_ORGANIZATION_ASSIGNMENT ( #177, #55, ( #93 ) ) ;
#9 = DIRECTION ( 'NONE',  ( 0.000000000000000000, 0.000000000000000000, 1.000000000000000000 ) ) ;
#10 = CARTESIAN_POINT ( 'NONE',  ( 0.5000000000000004441, 0.000000000000000000, 0.000000000000000000 ) ) ;
#11 = EDGE_CURVE ( 'NONE', #236, #124, #303, .T. ) ;
#12 = CARTESIAN_POINT ( 'NONE',  ( 0.5000000000000002220, 3.000000000000000000, 0.000000000000000000 ) ) ;
#13 = CARTESIAN_POINT ( 'NONE',  ( -1.614212418857619014, 6.123233995736766282E-16, -5.000000000000000000 ) ) ;
#14 = ORIENTED_EDGE ( 'NONE', *, *, #141, .F. ) ;
#15 = PLANE ( 'NONE',  #280 ) ;
#16 = ORIENTED_EDGE ( 'NONE', *, *, #195, .T. ) ;
#17 = AXIS2_PLACEMENT_3D ( 'NONE', #69, #301, #277 ) ;
#18 = DATE_AND_TIME ( #84, #192 ) ;
#19 = VERTEX_POINT ( 'NONE', #114 ) ;
#20 = EDGE_CURVE ( 'NONE', #307, #104, #293, .T. ) ;
#21 = EDGE_LOOP ( 'NONE', ( #294, #225 ) ) ;
#22 = CARTESIAN_POINT ( 'NONE',  ( -1.614212418857619014, 0.000000000000000000, 3.000000000000000000 ) ) ;
#23 = ORIENTED_EDGE ( 'NONE', *, *, #2, .T. ) ;
#24 = VECTOR ( 'NONE', #36, 1000.000000000000000 ) ;
#25 = APPROVAL_STATUS ( 'not_yet_approved' ) ;
#26 = ADVANCED_BREP_SHAPE_REPRESENTATION ( 'Q-DWWP-R24-20-1064-SH-M', ( #101, #3 ), #318 ) ;
#27 = ADVANCED_FACE ( 'NONE', ( #91 ), #56, .F. ) ;
#28 = CARTESIAN_POINT ( 'NONE',  ( 1.500000000000000000, 0.000000000000000000, 0.000000000000000000 ) ) ;
#29 = PRODUCT_DEFINITION_SHAPE ( 'NONE', 'NONE',  #93 ) ;
#30 = CARTESIAN_POINT ( 'NONE',  ( -0.5000000000000002220, 3.000000000000000000, 0.000000000000000000 ) ) ;
#31 = FACE_OUTER_BOUND ( 'NONE', #228, .T. ) ;
#32 = CARTESIAN_POINT ( 'NONE',  ( -0.5000000000000002220, 0.000000000000000000, 3.000000000000000000 ) ) ;
#33 = APPROVAL ( #155, 'UNSPECIFIED' ) ;
#34 = APPLICATION_CONTEXT ( 'configuration controlled 3d designs of mechanical parts and assemblies' ) ;
#35 = LINE ( 'NONE', #121, #115 ) ;
#36 = DIRECTION ( 'NONE',  ( -1.000000000000000000, -0.000000000000000000, -0.000000000000000000 ) ) ;
#37 = DIRECTION ( 'NONE',  ( -1.000000000000000000, 0.000000000000000000, -0.000000000000000000 ) ) ;
#38 = AXIS2_PLACEMENT_3D ( 'NONE', #271, #323, #252 ) ;
#39 = DIRECTION ( 'NONE',  ( -1.000000000000000000, -0.000000000000000000, -0.000000000000000000 ) ) ;
#40 = ORIENTED_EDGE ( 'NONE', *, *, #5, .T. ) ;
#41 = ORIENTED_EDGE ( 'NONE', *, *, #304, .F. ) ;
#42 = LOCAL_TIME ( 16, 53, 46.00000000000000000, #103 ) ;
#43 = AXIS2_PLACEMENT_3D ( 'NONE', #60, #86, #61 ) ;
#44 = CALENDAR_DATE ( 2020, 22, 12 ) ;
#45 = ORIENTED_EDGE ( 'NONE', *, *, #141, .T. ) ;
#46 = DIRECTION ( 'NONE',  ( 0.000000000000000000, 0.000000000000000000, 1.000000000000000000 ) ) ;
#47 = APPROVAL_DATE_TIME ( #212, #261 ) ;
#48 = ORIENTED_EDGE ( 'NONE', *, *, #195, .F. ) ;
#49 = CARTESIAN_POINT ( 'NONE',  ( 1.500000000000000000, 6.123233995736766282E-16, -5.000000000000000000 ) ) ;
#50 = DATE_TIME_ROLE ( 'creation_date' ) ;
#51 = CIRCLE ( 'NONE', #246, 3.000000000000000000 ) ;
#52 = DIRECTION ( 'NONE',  ( 0.000000000000000000, 0.000000000000000000, 1.000000000000000000 ) ) ;
#53 = VECTOR ( 'NONE', #168, 1000.000000000000000 ) ;
#54 = DIRECTION ( 'NONE',  ( 1.000000000000000000, 0.000000000000000000, 0.000000000000000000 ) ) ;
#55 = PERSON_AND_ORGANIZATION_ROLE ( 'creator' ) ;
#56 = CYLINDRICAL_SURFACE ( 'NONE', #100, 3.000000000000000000 ) ;
#57 = ADVANCED_FACE ( 'NONE', ( #88 ), #222, .F. ) ;
#58 = CIRCLE ( 'NONE', #226, 5.000000000000000000 ) ;
#59 = CARTESIAN_POINT ( 'NONE',  ( -1.614212418857619014, 0.000000000000000000, 0.000000000000000000 ) ) ;
#60 = CARTESIAN_POINT ( 'NONE',  ( 0.5000000000000004441, 0.000000000000000000, 0.000000000000000000 ) ) ;
#61 = DIRECTION ( 'NONE',  ( 0.000000000000000000, 0.000000000000000000, 1.000000000000000000 ) ) ;
#62 = CC_DESIGN_APPROVAL ( #207, ( #200 ) ) ;
#63 = ADVANCED_FACE ( 'NONE', ( #135 ), #185, .F. ) ;
#64 = DIRECTION ( 'NONE',  ( 0.000000000000000000, 0.000000000000000000, -1.000000000000000000 ) ) ;
#65 = DIRECTION ( 'NONE',  ( -0.000000000000000000, 0.000000000000000000, 1.000000000000000000 ) ) ;
#66 = DESIGN_CONTEXT ( 'detailed design', #71, 'design' ) ;
#67 = PLANE ( 'NONE',  #247 ) ;
#68 = AXIS2_PLACEMENT_3D ( 'NONE', #28, #191, #9 ) ;
#69 = CARTESIAN_POINT ( 'NONE',  ( -1.614212418857619014, 0.000000000000000000, 0.000000000000000000 ) ) ;
#70 = EDGE_LOOP ( 'NONE', ( #268, #45, #309, #72 ) ) ;
#71 = APPLICATION_CONTEXT ( 'configuration controlled 3d designs of mechanical parts and assemblies' ) ;
#72 = ORIENTED_EDGE ( 'NONE', *, *, #276, .T. ) ;
#73 = APPROVAL_STATUS ( 'not_yet_approved' ) ;
#74 = ORIENTED_EDGE ( 'NONE', *, *, #136, .F. ) ;
#75 = ADVANCED_FACE ( 'NONE', ( #269, #31 ), #242, .F. ) ;
#76 = APPROVAL_ROLE ( '' ) ;
#77 = EDGE_LOOP ( 'NONE', ( #156, #153 ) ) ;
#78 = CYLINDRICAL_SURFACE ( 'NONE', #325, 3.000000000000000000 ) ;
#79 = SHAPE_DEFINITION_REPRESENTATION ( #29, #26 ) ;
#80 = DIRECTION ( 'NONE',  ( 0.000000000000000000, 0.000000000000000000, 1.000000000000000000 ) ) ;
#81 = SECURITY_CLASSIFICATION_LEVEL ( 'unclassified' ) ;
#82 = AXIS2_PLACEMENT_3D ( 'NONE', #134, #213, #180 ) ;
#83 =( NAMED_UNIT ( * ) PLANE_ANGLE_UNIT ( ) SI_UNIT ( $, .RADIAN. ) );
#84 = CALENDAR_DATE ( 2020, 22, 12 ) ;
#85 = DIRECTION ( 'NONE',  ( 0.000000000000000000, 0.000000000000000000, 1.000000000000000000 ) ) ;
#86 = DIRECTION ( 'NONE',  ( -1.000000000000000000, -0.000000000000000000, -0.000000000000000000 ) ) ;
#87 = CC_DESIGN_APPROVAL ( #33, ( #256 ) ) ;
#88 = FACE_OUTER_BOUND ( 'NONE', #253, .T. ) ;
#89 = CARTESIAN_POINT ( 'NONE',  ( 1.500000000000000444, 0.000000000000000000, 3.000000000000000000 ) ) ;
#90 = EDGE_CURVE ( 'NONE', #109, #171, #221, .T. ) ;
#91 = FACE_OUTER_BOUND ( 'NONE', #311, .T. ) ;
#92 = LINE ( 'NONE', #13, #239 ) ;
#93 = PRODUCT_DEFINITION ( 'UNKNOWN', '', #256, #66 ) ;
#94 = AXIS2_PLACEMENT_3D ( 'NONE', #139, #243, #219 ) ;
#95 = LINE ( 'NONE', #22, #53 ) ;
#96 = ORIENTED_EDGE ( 'NONE', *, *, #20, .T. ) ;
#97 = CARTESIAN_POINT ( 'NONE',  ( -0.5000000000000002220, 0.000000000000000000, 0.000000000000000000 ) ) ;
#98 = CIRCLE ( 'NONE', #82, 5.000000000000000000 ) ;
#99 = ORIENTED_EDGE ( 'NONE', *, *, #223, .T. ) ;
#100 = AXIS2_PLACEMENT_3D ( 'NONE', #320, #217, #85 ) ;
#101 = MANIFOLD_SOLID_BREP ( 'Ðý×', #193 ) ;
#102 = ORIENTED_EDGE ( 'NONE', *, *, #276, .F. ) ;
#103 = COORDINATED_UNIVERSAL_TIME_OFFSET ( 8, 0, .AHEAD. ) ;
#104 = VERTEX_POINT ( 'NONE', #190 ) ;
#105 = APPROVAL_DATE_TIME ( #127, #33 ) ;
#106 = ORIENTED_EDGE ( 'NONE', *, *, #326, .F. ) ;
#107 = DIRECTION ( 'NONE',  ( 0.000000000000000000, 0.000000000000000000, -1.000000000000000000 ) ) ;
#108 = AXIS2_PLACEMENT_3D ( 'NONE', #208, #278, #46 ) ;
#109 = VERTEX_POINT ( 'NONE', #32 ) ;
#110 = DIRECTION ( 'NONE',  ( -1.000000000000000000, -0.000000000000000000, -0.000000000000000000 ) ) ;
#111 = MECHANICAL_CONTEXT ( 'NONE', #34, 'mechanical' ) ;
#112 = PERSON_AND_ORGANIZATION_ROLE ( 'classification_officer' ) ;
#113 = DIRECTION ( 'NONE',  ( 0.000000000000000000, 0.000000000000000000, 1.000000000000000000 ) ) ;
#114 = CARTESIAN_POINT ( 'NONE',  ( -0.5000000000000002220, 3.673940397442059868E-16, -3.000000000000000000 ) ) ;
#115 = VECTOR ( 'NONE', #224, 1000.000000000000000 ) ;
#116 = CARTESIAN_POINT ( 'NONE',  ( -1.614212418857619014, 0.000000000000000000, 5.000000000000000000 ) ) ;
#117 = CC_DESIGN_PERSON_AND_ORGANIZATION_ASSIGNMENT ( #235, #282, ( #256 ) ) ;
#118 = CARTESIAN_POINT ( 'NONE',  ( -1.500000000000000000, 0.000000000000000000, 3.000000000000000000 ) ) ;
#119 = CARTESIAN_POINT ( 'NONE',  ( -1.500000000000000000, 0.000000000000000000, 0.000000000000000000 ) ) ;
#120 = ADVANCED_FACE ( 'NONE', ( #140 ), #163, .T. ) ;
#121 = CARTESIAN_POINT ( 'NONE',  ( -1.614212418857619014, 3.673940397442059868E-16, -3.000000000000000000 ) ) ;
#122 = VERTEX_POINT ( 'NONE', #89 ) ;
#123 = CARTESIAN_POINT ( 'NONE',  ( -1.500000000000000000, 0.000000000000000000, 0.000000000000000000 ) ) ;
#124 = VERTEX_POINT ( 'NONE', #296 ) ;
#125 = PERSON_AND_ORGANIZATION_ROLE ( 'design_owner' ) ;
#126 = ORIENTED_EDGE ( 'NONE', *, *, #184, .F. ) ;
#127 = DATE_AND_TIME ( #214, #7 ) ;
#128 = ORIENTED_EDGE ( 'NONE', *, *, #223, .F. ) ;
#129 = FACE_OUTER_BOUND ( 'NONE', #21, .T. ) ;
#130 = EDGE_LOOP ( 'NONE', ( #48, #96, #40, #331 ) ) ;
#131 = CARTESIAN_POINT ( 'NONE',  ( -1.614212418857619014, 0.000000000000000000, 0.000000000000000000 ) ) ;
#132 = CALENDAR_DATE ( 2020, 22, 12 ) ;
#133 = COORDINATED_UNIVERSAL_TIME_OFFSET ( 8, 0, .AHEAD. ) ;
#134 = CARTESIAN_POINT ( 'NONE',  ( -1.500000000000000000, 0.000000000000000000, 0.000000000000000000 ) ) ;
#135 = FACE_OUTER_BOUND ( 'NONE', #210, .T. ) ;
#136 = EDGE_CURVE ( 'NONE', #231, #122, #332, .T. ) ;
#137 = VECTOR ( 'NONE', #162, 1000.000000000000000 ) ;
#138 = CC_DESIGN_PERSON_AND_ORGANIZATION_ASSIGNMENT ( #1, #112, ( #200 ) ) ;
#139 = CARTESIAN_POINT ( 'NONE',  ( -1.500000000000000000, 3.000000000000000000, 0.000000000000000000 ) ) ;
#140 = FACE_OUTER_BOUND ( 'NONE', #255, .T. ) ;
#141 = EDGE_CURVE ( 'NONE', #19, #109, #288, .T. ) ;
#142 = LOCAL_TIME ( 16, 53, 46.00000000000000000, #133 ) ;
#143 = APPROVAL_PERSON_ORGANIZATION ( #183, #207, #76 ) ;
#144 = EDGE_CURVE ( 'NONE', #124, #236, #230, .T. ) ;
#145 = DIRECTION ( 'NONE',  ( -1.000000000000000000, -0.000000000000000000, -0.000000000000000000 ) ) ;
#146 = CARTESIAN_POINT ( 'NONE',  ( 1.500000000000000222, 5.000000000000000000, 0.000000000000000000 ) ) ;
#147 = AXIS2_PLACEMENT_3D ( 'NONE', #319, #245, #6 ) ;
#148 = ORIENTED_EDGE ( 'NONE', *, *, #272, .T. ) ;
#149 = FACE_BOUND ( 'NONE', #151, .T. ) ;
#150 = EDGE_LOOP ( 'NONE', ( #102, #41 ) ) ;
#151 = EDGE_LOOP ( 'NONE', ( #270, #206 ) ) ;
#152 = DATE_AND_TIME ( #132, #164 ) ;
#153 = ORIENTED_EDGE ( 'NONE', *, *, #20, .F. ) ;
#154 = DIRECTION ( 'NONE',  ( -1.000000000000000000, -0.000000000000000000, -0.000000000000000000 ) ) ;
#155 = APPROVAL_STATUS ( 'not_yet_approved' ) ;
#156 = ORIENTED_EDGE ( 'NONE', *, *, #2, .F. ) ;
#157 = FACE_OUTER_BOUND ( 'NONE', #130, .T. ) ;
#158 = PERSON_AND_ORGANIZATION ( #334, #287 ) ;
#159 = CARTESIAN_POINT ( 'NONE',  ( -1.500000000000000000, 0.000000000000000000, 5.000000000000000000 ) ) ;
#160 = COORDINATED_UNIVERSAL_TIME_OFFSET ( 8, 0, .AHEAD. ) ;
#161 = DIRECTION ( 'NONE',  ( 0.000000000000000000, 0.000000000000000000, -1.000000000000000000 ) ) ;
#162 = DIRECTION ( 'NONE',  ( -1.000000000000000000, -0.000000000000000000, -0.000000000000000000 ) ) ;
#163 = CYLINDRICAL_SURFACE ( 'NONE', #147, 5.000000000000000000 ) ;
#164 = LOCAL_TIME ( 16, 53, 46.00000000000000000, #290 ) ;
#165 = CIRCLE ( 'NONE', #182, 5.000000000000000000 ) ;
#166 = CYLINDRICAL_SURFACE ( 'NONE', #17, 3.000000000000000000 ) ;
#167 = FACE_OUTER_BOUND ( 'NONE', #262, .T. ) ;
#168 = DIRECTION ( 'NONE',  ( -1.000000000000000000, -0.000000000000000000, -0.000000000000000000 ) ) ;
#169 = CARTESIAN_POINT ( 'NONE',  ( 0.5000000000000004441, 3.673940397442059868E-16, -3.000000000000000000 ) ) ;
#170 = CARTESIAN_POINT ( 'NONE',  ( -1.614212418857619014, 3.673940397442059868E-16, -3.000000000000000000 ) ) ;
#171 = VERTEX_POINT ( 'NONE', #118 ) ;
#172 = CC_DESIGN_SECURITY_CLASSIFICATION ( #200, ( #256 ) ) ;
#173 = PERSON_AND_ORGANIZATION ( #334, #287 ) ;
#174 = VERTEX_POINT ( 'NONE', #275 ) ;
#175 = AXIS2_PLACEMENT_3D ( 'NONE', #10, #249, #298 ) ;
#176 = EDGE_CURVE ( 'NONE', #305, #333, #58, .T. ) ;
#177 = PERSON_AND_ORGANIZATION ( #334, #287 ) ;
#178 = ORIENTED_EDGE ( 'NONE', *, *, #176, .T. ) ;
#179 = CARTESIAN_POINT ( 'NONE',  ( 0.000000000000000000, 0.000000000000000000, 0.000000000000000000 ) ) ;
#180 = DIRECTION ( 'NONE',  ( 0.000000000000000000, 0.000000000000000000, 1.000000000000000000 ) ) ;
#181 = AXIS2_PLACEMENT_3D ( 'NONE', #240, #312, #52 ) ;
#182 = AXIS2_PLACEMENT_3D ( 'NONE', #316, #4, #113 ) ;
#183 = PERSON_AND_ORGANIZATION ( #334, #287 ) ;
#184 = EDGE_CURVE ( 'NONE', #122, #231, #251, .T. ) ;
#185 = PLANE ( 'NONE',  #281 ) ;
#186 = CC_DESIGN_PERSON_AND_ORGANIZATION_ASSIGNMENT ( #205, #329, ( #256 ) ) ;
#187 = AXIS2_PLACEMENT_3D ( 'NONE', #59, #292, #291 ) ;
#188 = CARTESIAN_POINT ( 'NONE',  ( -1.614212418857619014, 0.000000000000000000, 3.000000000000000000 ) ) ;
#189 = CC_DESIGN_DATE_AND_TIME_ASSIGNMENT ( #203, #306, ( #200 ) ) ;
#190 = CARTESIAN_POINT ( 'NONE',  ( 1.500000000000000000, 0.000000000000000000, 5.000000000000000000 ) ) ;
#191 = DIRECTION ( 'NONE',  ( -1.000000000000000000, -0.000000000000000000, -0.000000000000000000 ) ) ;
#192 = LOCAL_TIME ( 16, 53, 46.00000000000000000, #310 ) ;
#193 = CLOSED_SHELL ( 'NONE', ( #120, #27, #234, #286, #57, #322, #75, #330, #248, #63 ) ) ;
#194 = LINE ( 'NONE', #170, #24 ) ;
#195 = EDGE_CURVE ( 'NONE', #307, #305, #92, .T. ) ;
#196 = CARTESIAN_POINT ( 'NONE',  ( -0.5000000000000002220, 0.000000000000000000, 0.000000000000000000 ) ) ;
#197 = CC_DESIGN_DATE_AND_TIME_ASSIGNMENT ( #18, #50, ( #93 ) ) ;
#198 = UNCERTAINTY_MEASURE_WITH_UNIT (LENGTH_MEASURE( 1.000000000000000082E-05 ), #335, 'distance_accuracy_value', 'NONE');
#199 = DIRECTION ( 'NONE',  ( -1.000000000000000000, -0.000000000000000000, -0.000000000000000000 ) ) ;
#200 = SECURITY_CLASSIFICATION ( '', '', #81 ) ;
#201 = FACE_OUTER_BOUND ( 'NONE', #77, .T. ) ;
#202 = ORIENTED_EDGE ( 'NONE', *, *, #144, .T. ) ;
#203 = DATE_AND_TIME ( #44, #42 ) ;
#204 = ORIENTED_EDGE ( 'NONE', *, *, #90, .F. ) ;
#205 = PERSON_AND_ORGANIZATION ( #334, #287 ) ;
#206 = ORIENTED_EDGE ( 'NONE', *, *, #136, .T. ) ;
#207 = APPROVAL ( #73, 'UNSPECIFIED' ) ;
#208 = CARTESIAN_POINT ( 'NONE',  ( 1.500000000000000444, 0.000000000000000000, 0.000000000000000000 ) ) ;
#209 = DIRECTION ( 'NONE',  ( 0.000000000000000000, 0.000000000000000000, 1.000000000000000000 ) ) ;
#210 = EDGE_LOOP ( 'NONE', ( #128, #14 ) ) ;
#211 = FACE_OUTER_BOUND ( 'NONE', #70, .T. ) ;
#212 = DATE_AND_TIME ( #241, #142 ) ;
#213 = DIRECTION ( 'NONE',  ( -1.000000000000000000, -0.000000000000000000, -0.000000000000000000 ) ) ;
#214 = CALENDAR_DATE ( 2020, 22, 12 ) ;
#215 = APPROVAL_PERSON_ORGANIZATION ( #158, #33, #264 ) ;
#216 = VECTOR ( 'NONE', #267, 1000.000000000000000 ) ;
#217 = DIRECTION ( 'NONE',  ( -1.000000000000000000, -0.000000000000000000, -0.000000000000000000 ) ) ;
#218 = DIRECTION ( 'NONE',  ( 1.000000000000000000, 0.000000000000000000, 0.000000000000000000 ) ) ;
#219 = DIRECTION ( 'NONE',  ( 0.000000000000000000, 0.000000000000000000, -1.000000000000000000 ) ) ;
#220 = AXIS2_PLACEMENT_3D ( 'NONE', #227, #199, #254 ) ;
#221 = LINE ( 'NONE', #188, #137 ) ;
#222 = CYLINDRICAL_SURFACE ( 'NONE', #187, 3.000000000000000000 ) ;
#223 = EDGE_CURVE ( 'NONE', #109, #19, #273, .T. ) ;
#224 = DIRECTION ( 'NONE',  ( -1.000000000000000000, -0.000000000000000000, -0.000000000000000000 ) ) ;
#225 = ORIENTED_EDGE ( 'NONE', *, *, #11, .F. ) ;
#226 = AXIS2_PLACEMENT_3D ( 'NONE', #119, #39, #300 ) ;
#227 = CARTESIAN_POINT ( 'NONE',  ( -1.500000000000000000, 0.000000000000000000, 0.000000000000000000 ) ) ;
#228 = EDGE_LOOP ( 'NONE', ( #238, #178 ) ) ;
#229 = CIRCLE ( 'NONE', #220, 3.000000000000000000 ) ;
#230 = CIRCLE ( 'NONE', #175, 3.000000000000000000 ) ;
#231 = VERTEX_POINT ( 'NONE', #324 ) ;
#232 = APPROVAL_ROLE ( '' ) ;
#233 = ORIENTED_EDGE ( 'NONE', *, *, #11, .T. ) ;
#234 = ADVANCED_FACE ( 'NONE', ( #167 ), #166, .F. ) ;
#235 = PERSON_AND_ORGANIZATION ( #334, #287 ) ;
#236 = VERTEX_POINT ( 'NONE', #169 ) ;
#237 = DIRECTION ( 'NONE',  ( -0.000000000000000000, 0.000000000000000000, 1.000000000000000000 ) ) ;
#238 = ORIENTED_EDGE ( 'NONE', *, *, #326, .T. ) ;
#239 = VECTOR ( 'NONE', #145, 1000.000000000000000 ) ;
#240 = CARTESIAN_POINT ( 'NONE',  ( -1.614212418857619014, 0.000000000000000000, 0.000000000000000000 ) ) ;
#241 = CALENDAR_DATE ( 2020, 22, 12 ) ;
#242 = PLANE ( 'NONE',  #94 ) ;
#243 = DIRECTION ( 'NONE',  ( 1.000000000000000000, 0.000000000000000000, 0.000000000000000000 ) ) ;
#244 = CC_DESIGN_PERSON_AND_ORGANIZATION_ASSIGNMENT ( #173, #125, ( #295 ) ) ;
#245 = DIRECTION ( 'NONE',  ( -1.000000000000000000, -0.000000000000000000, -0.000000000000000000 ) ) ;
#246 = AXIS2_PLACEMENT_3D ( 'NONE', #123, #154, #250 ) ;
#247 = AXIS2_PLACEMENT_3D ( 'NONE', #146, #37, #65 ) ;
#248 = ADVANCED_FACE ( 'NONE', ( #201, #149 ), #67, .F. ) ;
#249 = DIRECTION ( 'NONE',  ( -1.000000000000000000, -0.000000000000000000, -0.000000000000000000 ) ) ;
#250 = DIRECTION ( 'NONE',  ( 0.000000000000000000, 0.000000000000000000, 1.000000000000000000 ) ) ;
#251 = CIRCLE ( 'NONE', #108, 3.000000000000000000 ) ;
#252 = DIRECTION ( 'NONE',  ( 0.000000000000000000, 0.000000000000000000, 1.000000000000000000 ) ) ;
#253 = EDGE_LOOP ( 'NONE', ( #328, #126, #283, #202 ) ) ;
#254 = DIRECTION ( 'NONE',  ( 0.000000000000000000, 0.000000000000000000, 1.000000000000000000 ) ) ;
#255 = EDGE_LOOP ( 'NONE', ( #23, #16, #106, #259 ) ) ;
#256 = PRODUCT_DEFINITION_FORMATION_WITH_SPECIFIED_SOURCE ( 'ANY', '', #295, .NOT_KNOWN. ) ;
#257 = ORIENTED_EDGE ( 'NONE', *, *, #299, .F. ) ;
#258 = EDGE_CURVE ( 'NONE', #19, #174, #35, .T. ) ;
#259 = ORIENTED_EDGE ( 'NONE', *, *, #5, .F. ) ;
#260 = DIRECTION ( 'NONE',  ( -1.000000000000000000, 0.000000000000000000, -0.000000000000000000 ) ) ;
#261 = APPROVAL ( #25, 'UNSPECIFIED' ) ;
#262 = EDGE_LOOP ( 'NONE', ( #74, #148, #233, #257 ) ) ;
#263 = CARTESIAN_POINT ( 'NONE',  ( -1.500000000000000000, 6.123233995736766282E-16, -5.000000000000000000 ) ) ;
#264 = APPROVAL_ROLE ( '' ) ;
#265 = PERSON_AND_ORGANIZATION ( #334, #287 ) ;
#266 = PRODUCT_RELATED_PRODUCT_CATEGORY ( 'detail', '', ( #295 ) ) ;
#267 = DIRECTION ( 'NONE',  ( -1.000000000000000000, -0.000000000000000000, -0.000000000000000000 ) ) ;
#268 = ORIENTED_EDGE ( 'NONE', *, *, #258, .F. ) ;
#269 = FACE_BOUND ( 'NONE', #150, .T. ) ;
#270 = ORIENTED_EDGE ( 'NONE', *, *, #184, .T. ) ;
#271 = CARTESIAN_POINT ( 'NONE',  ( 1.500000000000000444, 0.000000000000000000, 0.000000000000000000 ) ) ;
#272 = EDGE_CURVE ( 'NONE', #231, #236, #194, .T. ) ;
#273 = CIRCLE ( 'NONE', #297, 3.000000000000000000 ) ;
#274 = DIRECTION ( 'NONE',  ( 1.000000000000000000, 0.000000000000000000, 0.000000000000000000 ) ) ;
#275 = CARTESIAN_POINT ( 'NONE',  ( -1.500000000000000000, 3.673940397442059868E-16, -3.000000000000000000 ) ) ;
#276 = EDGE_CURVE ( 'NONE', #171, #174, #51, .T. ) ;
#277 = DIRECTION ( 'NONE',  ( 0.000000000000000000, 0.000000000000000000, 1.000000000000000000 ) ) ;
#278 = DIRECTION ( 'NONE',  ( -1.000000000000000000, -0.000000000000000000, -0.000000000000000000 ) ) ;
#279 = ORIENTED_EDGE ( 'NONE', *, *, #304, .T. ) ;
#280 = AXIS2_PLACEMENT_3D ( 'NONE', #12, #260, #237 ) ;
#281 = AXIS2_PLACEMENT_3D ( 'NONE', #30, #218, #161 ) ;
#282 = PERSON_AND_ORGANIZATION_ROLE ( 'creator' ) ;
#283 = ORIENTED_EDGE ( 'NONE', *, *, #299, .T. ) ;
#284 = APPLICATION_PROTOCOL_DEFINITION ( 'international standard', 'config_control_design', 1994, #34 ) ;
#285 = ORIENTED_EDGE ( 'NONE', *, *, #258, .T. ) ;
#286 = ADVANCED_FACE ( 'NONE', ( #129 ), #15, .F. ) ;
#287 = ORGANIZATION ( 'UNSPECIFIED', 'UNSPECIFIED', '' ) ;
#288 = CIRCLE ( 'NONE', #327, 3.000000000000000000 ) ;
#289 =( NAMED_UNIT ( * ) SI_UNIT ( $, .STERADIAN. ) SOLID_ANGLE_UNIT ( ) );
#290 = COORDINATED_UNIVERSAL_TIME_OFFSET ( 8, 0, .AHEAD. ) ;
#291 = DIRECTION ( 'NONE',  ( 0.000000000000000000, 0.000000000000000000, 1.000000000000000000 ) ) ;
#292 = DIRECTION ( 'NONE',  ( -1.000000000000000000, -0.000000000000000000, -0.000000000000000000 ) ) ;
#293 = CIRCLE ( 'NONE', #68, 5.000000000000000000 ) ;
#294 = ORIENTED_EDGE ( 'NONE', *, *, #144, .F. ) ;
#295 = PRODUCT ( 'Q-DWWP-R24-20-1064-SH-M', 'Q-DWWP-R24-20-1064-SH-M', '', ( #111 ) ) ;
#296 = CARTESIAN_POINT ( 'NONE',  ( 0.5000000000000004441, 0.000000000000000000, 3.000000000000000000 ) ) ;
#297 = AXIS2_PLACEMENT_3D ( 'NONE', #97, #274, #64 ) ;
#298 = DIRECTION ( 'NONE',  ( 0.000000000000000000, 0.000000000000000000, 1.000000000000000000 ) ) ;
#299 = EDGE_CURVE ( 'NONE', #122, #124, #95, .T. ) ;
#300 = DIRECTION ( 'NONE',  ( 0.000000000000000000, 0.000000000000000000, 1.000000000000000000 ) ) ;
#301 = DIRECTION ( 'NONE',  ( -1.000000000000000000, -0.000000000000000000, -0.000000000000000000 ) ) ;
#302 = APPROVAL_PERSON_ORGANIZATION ( #265, #261, #232 ) ;
#303 = CIRCLE ( 'NONE', #43, 3.000000000000000000 ) ;
#304 = EDGE_CURVE ( 'NONE', #174, #171, #229, .T. ) ;
#305 = VERTEX_POINT ( 'NONE', #263 ) ;
#306 = DATE_TIME_ROLE ( 'classification_date' ) ;
#307 = VERTEX_POINT ( 'NONE', #49 ) ;
#308 = APPLICATION_PROTOCOL_DEFINITION ( 'international standard', 'config_control_design', 1994, #71 ) ;
#309 = ORIENTED_EDGE ( 'NONE', *, *, #90, .T. ) ;
#310 = COORDINATED_UNIVERSAL_TIME_OFFSET ( 8, 0, .AHEAD. ) ;
#311 = EDGE_LOOP ( 'NONE', ( #99, #285, #279, #204 ) ) ;
#312 = DIRECTION ( 'NONE',  ( -1.000000000000000000, -0.000000000000000000, -0.000000000000000000 ) ) ;
#313 = CYLINDRICAL_SURFACE ( 'NONE', #181, 5.000000000000000000 ) ;
#314 = CC_DESIGN_APPROVAL ( #261, ( #93 ) ) ;
#315 = APPROVAL_DATE_TIME ( #152, #207 ) ;
#316 = CARTESIAN_POINT ( 'NONE',  ( 1.500000000000000000, 0.000000000000000000, 0.000000000000000000 ) ) ;
#317 = LINE ( 'NONE', #116, #216 ) ;
#318 =( GEOMETRIC_REPRESENTATION_CONTEXT ( 3 ) GLOBAL_UNCERTAINTY_ASSIGNED_CONTEXT ( ( #198 ) ) GLOBAL_UNIT_ASSIGNED_CONTEXT ( ( #335, #83, #289 ) ) REPRESENTATION_CONTEXT ( 'NONE', 'WORKASPACE' ) );
#319 = CARTESIAN_POINT ( 'NONE',  ( -1.614212418857619014, 0.000000000000000000, 0.000000000000000000 ) ) ;
#320 = CARTESIAN_POINT ( 'NONE',  ( -1.614212418857619014, 0.000000000000000000, 0.000000000000000000 ) ) ;
#321 = DIRECTION ( 'NONE',  ( 1.000000000000000000, 0.000000000000000000, 0.000000000000000000 ) ) ;
#322 = ADVANCED_FACE ( 'NONE', ( #211 ), #78, .F. ) ;
#323 = DIRECTION ( 'NONE',  ( -1.000000000000000000, -0.000000000000000000, -0.000000000000000000 ) ) ;
#324 = CARTESIAN_POINT ( 'NONE',  ( 1.500000000000000444, 3.673940397442059868E-16, -3.000000000000000000 ) ) ;
#325 = AXIS2_PLACEMENT_3D ( 'NONE', #131, #110, #80 ) ;
#326 = EDGE_CURVE ( 'NONE', #333, #305, #98, .T. ) ;
#327 = AXIS2_PLACEMENT_3D ( 'NONE', #196, #321, #107 ) ;
#328 = ORIENTED_EDGE ( 'NONE', *, *, #272, .F. ) ;
#329 = PERSON_AND_ORGANIZATION_ROLE ( 'design_supplier' ) ;
#330 = ADVANCED_FACE ( 'NONE', ( #157 ), #313, .T. ) ;
#331 = ORIENTED_EDGE ( 'NONE', *, *, #176, .F. ) ;
#332 = CIRCLE ( 'NONE', #38, 3.000000000000000000 ) ;
#333 = VERTEX_POINT ( 'NONE', #159 ) ;
#334 = PERSON ( 'UNSPECIFIED', 'UNSPECIFIED', 'UNSPECIFIED', ('UNSPECIFIED'), ('UNSPECIFIED'), ('UNSPECIFIED') ) ;
#335 =( LENGTH_UNIT ( ) NAMED_UNIT ( * ) SI_UNIT ( .MILLI., .METRE. ) );
ENDSEC;
END-ISO-10303-21;
